0
SECTION
2
HEADER
9
$INSUNITS
70
4
9
$ACADVER
1
AC1014
9
$HANDSEED
5
FFFF
0
ENDSEC
0
SECTION
2
TABLES
0
TABLE
2
VPORT
5
8
100
AcDbSymbolTable
0
ENDTAB
0
TABLE
2
LTYPE
5
5
100
AcDbSymbolTable
0
LTYPE
5
14
100
AcDbSymbolTableRecord
100
AcDbLinetypeTableRecord
2
BYBLOCK
70
0
0
LTYPE
5
15
100
AcDbSymbolTableRecord
100
AcDbLinetypeTableRecord
2
BYLAYER
70
0
0
ENDTAB
0
TABLE
2
LAYER
5
2
100
AcDbSymbolTable
70
2
0
LAYER
5
50
100
AcDbSymbolTableRecord
100
AcDbLayerTableRecord
2
0
70
0
6
CONTINUOUS
0
ENDTAB
0
TABLE
2
STYLE
5
3
100
AcDbSymbolTable
70
1
0
STYLE
5
11
100
AcDbSymbolTableRecord
100
AcDbTextStyleTableRecord
2
STANDARD
70
0
0
ENDTAB
0
TABLE
2
VIEW
5
6
100
AcDbSymbolTable
70
0
0
ENDTAB
0
TABLE
2
UCS
5
7
100
AcDbSymbolTable
70
0
0
ENDTAB
0
TABLE
2
APPID
5
9
100
AcDbSymbolTable
70
2
0
APPID
5
12
100
AcDbSymbolTableRecord
100
AcDbRegAppTableRecord
2
ACAD
70
0
0
ENDTAB
0
TABLE
2
DIMSTYLE
5
A
100
AcDbSymbolTable
70
1
0
ENDTAB
0
TABLE
2
BLOCK_RECORD
5
1
100
AcDbSymbolTable
70
1
0
BLOCK_RECORD
5
1F
100
AcDbSymbolTableRecord
100
AcDbBlockTableRecord
2
*MODEL_SPACE
0
BLOCK_RECORD
5
1B
100
AcDbSymbolTableRecord
100
AcDbBlockTableRecord
2
*PAPER_SPACE
0
ENDTAB
0
ENDSEC
0
SECTION
2
BLOCKS
0
BLOCK
5
20
100
AcDbEntity
100
AcDbBlockBegin
2
*MODEL_SPACE
0
ENDBLK
5
21
100
AcDbEntity
100
AcDbBlockEnd
0
BLOCK
5
1C
100
AcDbEntity
100
AcDbBlockBegin
2
*PAPER_SPACE
0
ENDBLK
5
1D
100
AcDbEntity
100
AcDbBlockEnd
0
ENDSEC
0
SECTION
2
ENTITIES
0
CIRCLE
5
100
100
AcDbEntity
8
0
100
AcDbCircle
10
-16.084213414400892
20
119.34158817240143
30
0
40
1.3000000000000054
210
3.9443045261050599e-31
220
5.6051938572995409e-45
230
1
0
CIRCLE
5
101
100
AcDbEntity
8
0
100
AcDbCircle
10
-26.084213414400992
20
129.34158817240117
30
0
40
1.2999999999999989
210
-5.4718788076579149e-103
220
2.1710732734774105e-58
230
1
0
CIRCLE
5
102
100
AcDbEntity
8
0
100
AcDbCircle
10
-26.084213414401102
20
139.34158817240129
30
0
40
1.2999999999999989
210
-5.4718788076579149e-103
220
2.1710732734774105e-58
230
1
0
CIRCLE
5
103
100
AcDbEntity
8
0
100
AcDbCircle
10
-16.084213414401109
20
139.3415881724014
30
0
40
1.3000000000000054
210
3.9443045261050599e-31
220
5.6051938572995409e-45
230
1
0
CIRCLE
5
104
100
AcDbEntity
8
0
100
AcDbCircle
10
-36.084213414400992
20
129.34158817240117
30
0
40
1.3000000000000034
210
1.4127087213156651e-89
220
-5.6051938572990511e-45
230
1
0
CIRCLE
5
105
100
AcDbEntity
8
0
100
AcDbCircle
10
-6.084213414400768
20
119.34158817240153
30
0
40
1.2999999999999989
210
-4.6710185089239945e-102
220
2.5781495122544252e-58
230
1
0
CIRCLE
5
106
100
AcDbEntity
8
0
100
AcDbCircle
10
-26.084213414400878
20
119.34158817240132
30
0
40
1.2999999999999989
210
-5.4718788076579149e-103
220
2.1710732734774105e-58
230
1
0
CIRCLE
5
107
100
AcDbEntity
8
0
100
AcDbCircle
10
-16.084213414400988
20
129.34158817240115
30
0
40
1.3000000000000034
210
1.306953976523421e-88
220
-5.605193857298997e-45
230
1
0
CIRCLE
5
108
100
AcDbEntity
8
0
100
AcDbCircle
10
-36.084213414401113
20
139.34158817240117
30
0
40
1.3000000000000034
210
1.4127087213156651e-89
220
-5.6051938572990511e-45
230
1
0
CIRCLE
5
109
100
AcDbEntity
8
0
100
AcDbCircle
10
-6.0842134144009909
20
139.34158817240154
30
0
40
1.2999999999999989
210
-4.6710185089239945e-102
220
2.5781495122544252e-58
230
1
0
CIRCLE
5
110
100
AcDbEntity
8
0
100
AcDbCircle
10
-46.084213414400992
20
129.34158817240117
30
0
40
1.3000000000000078
210
-5.4718788076578931e-103
220
2.1710732734774105e-58
230
1
0
CIRCLE
5
111
100
AcDbEntity
8
0
100
AcDbCircle
10
-6.0842134144009909
20
129.34158817240154
30
0
40
1.3
210
-3.944304526105059e-31
220
2.5781495122544249e-58
230
1
0
CIRCLE
5
112
100
AcDbEntity
8
0
100
AcDbCircle
10
-36.084213414400885
20
119.3415881724012
30
0
40
1.3000000000000034
210
1.4127087213156651e-89
220
-5.6051938572990511e-45
230
1
0
CIRCLE
5
113
100
AcDbEntity
8
0
100
AcDbCircle
10
-69.220529003187167
20
141.34158817240083
30
0
40
1.3000000000000078
210
0
220
2.1052943723227748e-58
230
1
0
CIRCLE
5
114
100
AcDbEntity
8
0
100
AcDbCircle
10
-69.220529003187025
20
129.3415881724008
30
0
40
9.0000000000000036
210
0
220
2.1052943723227748e-58
230
1
0
CIRCLE
5
115
100
AcDbEntity
8
0
100
AcDbCircle
10
-57.220529003187011
20
129.34158817240098
30
0
40
1.3000000000000078
210
0
220
2.1052943723227748e-58
230
1
0
CIRCLE
5
116
100
AcDbEntity
8
0
100
AcDbCircle
10
-60.735247628948542
20
137.8268695466395
30
0
40
1.3000000000000078
210
0
220
2.1052943723227748e-58
230
1
0
CIRCLE
5
117
100
AcDbEntity
8
0
100
AcDbCircle
10
-81.220529003187039
20
129.34158817240069
30
0
40
1.3000000000000078
210
0
220
2.1052943723227748e-58
230
1
0
CIRCLE
5
118
100
AcDbEntity
8
0
100
AcDbCircle
10
-77.705810377425507
20
120.85630679816214
30
0
40
1.3000000000000078
210
0
220
2.1052943723227748e-58
230
1
0
CIRCLE
5
119
100
AcDbEntity
8
0
100
AcDbCircle
10
-77.705810377425706
20
137.8268695466393
30
0
40
1.3000000000000078
210
0
220
2.1052943723227748e-58
230
1
0
CIRCLE
5
120
100
AcDbEntity
8
0
100
AcDbCircle
10
-69.220529003186883
20
117.3415881724008
30
0
40
1.3000000000000078
210
0
220
2.1052943723227748e-58
230
1
0
CIRCLE
5
121
100
AcDbEntity
8
0
100
AcDbCircle
10
-60.735247628948343
20
120.85630679816234
30
0
40
1.3000000000000078
210
0
220
2.1052943723227748e-58
230
1
0
LWPOLYLINE
5
122
100
AcDbEntity
8
0
100
AcDbPolyline
90
18
70
1
43
0.0
10
8.0724330860967708
20
160.04158817240167
42
-0.99999999999999989
10
4.5724330860967699
20
160.04158817240167
10
4.5724330860967388
20
163.04158817240167
10
-16.740859914899499
20
163.04158817240142
10
-16.740859914899488
20
160.04158817240139
42
-0.99999999999999989
10
-20.240859914899467
20
160.04158817240139
10
-25.955529003187998
20
160.04158817240216
42
-0.13883493890832163
10
-70.205200442429401
20
144.30923401791509
42
0.93637494535976884
10
-70.205200442429046
20
114.37394232688759
42
-0.13883493890832188
10
-25.955529003186648
20
98.641588172401313
10
-20.24085991489877
20
98.641588172401356
42
-0.99999999999999989
10
-16.740859914898756
20
98.641588172401413
10
-16.740859914898721
20
95.641588172401413
10
4.5724330860975186
20
95.641588172401669
10
4.572433086097492
20
98.641588172401725
42
-0.99999999999999989
10
8.0724330860974831
20
98.641588172401683
10
14.572433086097433
20
98.641588172401782
42
-0.16286644951140042
10
14.572433086096783
20
160.04158817240182
0
CIRCLE
5
123
100
AcDbEntity
8
0
100
AcDbCircle
10
-6.0842134144007245
20
106.14158817240154
30
0
40
1.3000000000000012
210
-5.4718788076581379e-103
220
2.1710732734774133e-58
230
1
0
CIRCLE
5
124
100
AcDbEntity
8
0
100
AcDbCircle
10
-6.0842134144012618
20
152.54158817240153
30
0
40
1.2999999999999945
210
-5.4718788076581379e-103
220
2.1710732734774133e-58
230
1
0
ENDSEC
0
SECTION
2
OBJECTS
0
DICTIONARY
5
C
100
AcDbDictionary
3
ACAD_GROUP
350
D
3
ACAD_MLINESTYLE
350
17
0
DICTIONARY
5
D
100
AcDbDictionary
0
DICTIONARY
5
1A
330
C
100
AcDbDictionary
0
DICTIONARY
5
17
100
AcDbDictionary
0
ENDSEC
0
EOF
