0
SECTION
2
HEADER
9
$INSUNITS
70
4
9
$ACADVER
1
AC1014
9
$HANDSEED
5
FFFF
0
ENDSEC
0
SECTION
2
TABLES
0
TABLE
2
VPORT
5
8
100
AcDbSymbolTable
0
ENDTAB
0
TABLE
2
LTYPE
5
5
100
AcDbSymbolTable
0
LTYPE
5
14
100
AcDbSymbolTableRecord
100
AcDbLinetypeTableRecord
2
BYBLOCK
70
0
0
LTYPE
5
15
100
AcDbSymbolTableRecord
100
AcDbLinetypeTableRecord
2
BYLAYER
70
0
0
ENDTAB
0
TABLE
2
LAYER
5
2
100
AcDbSymbolTable
70
2
0
LAYER
5
50
100
AcDbSymbolTableRecord
100
AcDbLayerTableRecord
2
0
70
0
6
CONTINUOUS
0
ENDTAB
0
TABLE
2
STYLE
5
3
100
AcDbSymbolTable
70
1
0
STYLE
5
11
100
AcDbSymbolTableRecord
100
AcDbTextStyleTableRecord
2
STANDARD
70
0
0
ENDTAB
0
TABLE
2
VIEW
5
6
100
AcDbSymbolTable
70
0
0
ENDTAB
0
TABLE
2
UCS
5
7
100
AcDbSymbolTable
70
0
0
ENDTAB
0
TABLE
2
APPID
5
9
100
AcDbSymbolTable
70
2
0
APPID
5
12
100
AcDbSymbolTableRecord
100
AcDbRegAppTableRecord
2
ACAD
70
0
0
ENDTAB
0
TABLE
2
DIMSTYLE
5
A
100
AcDbSymbolTable
70
1
0
ENDTAB
0
TABLE
2
BLOCK_RECORD
5
1
100
AcDbSymbolTable
70
1
0
BLOCK_RECORD
5
1F
100
AcDbSymbolTableRecord
100
AcDbBlockTableRecord
2
*MODEL_SPACE
0
BLOCK_RECORD
5
1B
100
AcDbSymbolTableRecord
100
AcDbBlockTableRecord
2
*PAPER_SPACE
0
ENDTAB
0
ENDSEC
0
SECTION
2
BLOCKS
0
BLOCK
5
20
100
AcDbEntity
100
AcDbBlockBegin
2
*MODEL_SPACE
0
ENDBLK
5
21
100
AcDbEntity
100
AcDbBlockEnd
0
BLOCK
5
1C
100
AcDbEntity
100
AcDbBlockBegin
2
*PAPER_SPACE
0
ENDBLK
5
1D
100
AcDbEntity
100
AcDbBlockEnd
0
ENDSEC
0
SECTION
2
ENTITIES
0
CIRCLE
5
100
100
AcDbEntity
8
0
100
AcDbCircle
10
49.039622152386656
20
23.699999999999982
30
0
40
1.3000000000000078
210
0
220
0
230
1
0
CIRCLE
5
101
100
AcDbEntity
8
0
100
AcDbCircle
10
59.039622152386656
20
33.699999999999989
30
0
40
1.3000000000000078
210
0
220
0
230
1
0
CIRCLE
5
102
100
AcDbEntity
8
0
100
AcDbCircle
10
29.039622152386659
20
43.699999999999974
30
0
40
1.3000000000000034
210
0
220
0
230
1
0
CIRCLE
5
103
100
AcDbEntity
8
0
100
AcDbCircle
10
69.039622152386656
20
43.699999999999989
30
0
40
1.3000000000000078
210
0
220
0
230
1
0
CIRCLE
5
104
100
AcDbEntity
8
0
100
AcDbCircle
10
39.039622152386656
20
43.699999999999974
30
0
40
1.3000000000000078
210
0
220
0
230
1
0
CIRCLE
5
105
100
AcDbEntity
8
0
100
AcDbCircle
10
49.039622152386656
20
33.699999999999982
30
0
40
1.3000000000000078
210
0
220
0
230
1
0
CIRCLE
5
106
100
AcDbEntity
8
0
100
AcDbCircle
10
59.039622152386656
20
23.699999999999989
30
0
40
1.3000000000000078
210
0
220
0
230
1
0
CIRCLE
5
107
100
AcDbEntity
8
0
100
AcDbCircle
10
39.039622152386656
20
23.699999999999974
30
0
40
1.3000000000000078
210
0
220
0
230
1
0
CIRCLE
5
108
100
AcDbEntity
8
0
100
AcDbCircle
10
69.039622152386656
20
33.699999999999996
30
0
40
1.3000000000000078
210
0
220
0
230
1
0
CIRCLE
5
109
100
AcDbEntity
8
0
100
AcDbCircle
10
29.039622152386659
20
33.699999999999967
30
0
40
1.3000000000000034
210
0
220
0
230
1
0
CIRCLE
5
110
100
AcDbEntity
8
0
100
AcDbCircle
10
59.039622152386656
20
43.699999999999989
30
0
40
1.3000000000000078
210
0
220
0
230
1
0
CIRCLE
5
111
100
AcDbEntity
8
0
100
AcDbCircle
10
49.039622152386656
20
43.699999999999982
30
0
40
1.3000000000000078
210
0
220
0
230
1
0
CIRCLE
5
112
100
AcDbEntity
8
0
100
AcDbCircle
10
39.039622152386656
20
33.699999999999982
30
0
40
1.3000000000000078
210
0
220
0
230
1
0
CIRCLE
5
113
100
AcDbEntity
8
0
100
AcDbCircle
10
69.039622152386656
20
23.699999999999992
30
0
40
1.3000000000000078
210
0
220
0
230
1
0
CIRCLE
5
114
100
AcDbEntity
8
0
100
AcDbCircle
10
29.039622152386659
20
23.699999999999974
30
0
40
1.3000000000000034
210
0
220
0
230
1
0
LWPOLYLINE
5
115
100
AcDbEntity
8
0
100
AcDbPolyline
90
16
70
1
43
0.0
10
88.500000000000014
20
64.400000000000006
42
-0.99999999999999989
10
85
20
64.400000000000006
10
85
20
67.400000000000006
10
0
20
67.400000000000006
10
5.5511151231257827e-16
20
64.40000000000002
42
-0.99999999999999989
10
-3.5000000000000009
20
64.400000000000006
10
-15.000000223517418
20
64.400000000000006
42
0.24471372301903987
10
-15.000000223517414
20
2.9999999999999938
10
-3.5000000000000009
20
2.9999999999999987
42
-0.99999999999999989
10
0
20
3.0000000000000009
10
0
20
0
10
85
20
0
10
85
20
2.9999999999999991
42
-0.99999999999999989
10
88.500000000000014
20
2.9999999999999991
10
99.999999999999972
20
2.9999999999999627
42
-0.24429967426709973
10
99.999999999999972
20
64.400000000000006
0
CIRCLE
5
116
100
AcDbEntity
8
0
100
AcDbCircle
10
-18.420755695226692
20
21.699999999999946
30
0
40
1.2999999999999989
210
0
220
0
230
1
0
CIRCLE
5
117
100
AcDbEntity
8
0
100
AcDbCircle
10
-6.4207556952266938
20
33.69999999999996
30
0
40
1.2999999999999989
210
0
220
0
230
1
0
CIRCLE
5
118
100
AcDbEntity
8
0
100
AcDbCircle
10
5.5792443047733018
20
45.69999999999996
30
0
40
1.2999999999999978
210
0
220
0
230
1
0
CIRCLE
5
119
100
AcDbEntity
8
0
100
AcDbCircle
10
-18.420755695226699
20
33.699999999999953
30
0
40
1.2999999999999989
210
0
220
0
230
1
0
CIRCLE
5
120
100
AcDbEntity
8
0
100
AcDbCircle
10
-6.4207556952266875
20
21.69999999999995
30
0
40
1.2999999999999989
210
0
220
0
230
1
0
CIRCLE
5
121
100
AcDbEntity
8
0
100
AcDbCircle
10
5.579244304773308
20
33.69999999999996
30
0
40
1.2999999999999989
210
0
220
0
230
1
0
CIRCLE
5
122
100
AcDbEntity
8
0
100
AcDbCircle
10
-6.4207556952267
20
45.69999999999996
30
0
40
1.3000000000000023
210
0
220
0
230
1
0
CIRCLE
5
123
100
AcDbEntity
8
0
100
AcDbCircle
10
-18.420755695226703
20
45.69999999999996
30
0
40
1.3000000000000034
210
0
220
0
230
1
0
CIRCLE
5
124
100
AcDbEntity
8
0
100
AcDbCircle
10
5.5792443047733142
20
21.69999999999996
30
0
40
1.3
210
0
220
0
230
1
0
CIRCLE
5
125
100
AcDbEntity
8
0
100
AcDbCircle
10
77.5
20
56.900000000000006
30
0
40
1.2999999999999989
210
0
220
0
230
1
0
CIRCLE
5
126
100
AcDbEntity
8
0
100
AcDbCircle
10
16.079244304773308
20
56.900000000000006
30
0
40
1.2999999999999989
210
0
220
0
230
1
0
CIRCLE
5
127
100
AcDbEntity
8
0
100
AcDbCircle
10
77.5
20
10.5
30
0
40
1.2999999999999989
210
0
220
0
230
1
0
CIRCLE
5
128
100
AcDbEntity
8
0
100
AcDbCircle
10
16.079244304773308
20
10.5
30
0
40
1.3000000000000012
210
0
220
0
230
1
0
ENDSEC
0
SECTION
2
OBJECTS
0
DICTIONARY
5
C
100
AcDbDictionary
3
ACAD_GROUP
350
D
3
ACAD_MLINESTYLE
350
17
0
DICTIONARY
5
D
100
AcDbDictionary
0
DICTIONARY
5
1A
330
C
100
AcDbDictionary
0
DICTIONARY
5
17
100
AcDbDictionary
0
ENDSEC
0
EOF
