0
SECTION
2
HEADER
9
$INSUNITS
70
4
9
$ACADVER
1
AC1014
9
$HANDSEED
5
FFFF
0
ENDSEC
0
SECTION
2
TABLES
0
TABLE
2
VPORT
5
8
100
AcDbSymbolTable
0
ENDTAB
0
TABLE
2
LTYPE
5
5
100
AcDbSymbolTable
0
LTYPE
5
14
100
AcDbSymbolTableRecord
100
AcDbLinetypeTableRecord
2
BYBLOCK
70
0
0
LTYPE
5
15
100
AcDbSymbolTableRecord
100
AcDbLinetypeTableRecord
2
BYLAYER
70
0
0
ENDTAB
0
TABLE
2
LAYER
5
2
100
AcDbSymbolTable
70
2
0
LAYER
5
50
100
AcDbSymbolTableRecord
100
AcDbLayerTableRecord
2
0
70
0
6
CONTINUOUS
0
ENDTAB
0
TABLE
2
STYLE
5
3
100
AcDbSymbolTable
70
1
0
STYLE
5
11
100
AcDbSymbolTableRecord
100
AcDbTextStyleTableRecord
2
STANDARD
70
0
0
ENDTAB
0
TABLE
2
VIEW
5
6
100
AcDbSymbolTable
70
0
0
ENDTAB
0
TABLE
2
UCS
5
7
100
AcDbSymbolTable
70
0
0
ENDTAB
0
TABLE
2
APPID
5
9
100
AcDbSymbolTable
70
2
0
APPID
5
12
100
AcDbSymbolTableRecord
100
AcDbRegAppTableRecord
2
ACAD
70
0
0
ENDTAB
0
TABLE
2
DIMSTYLE
5
A
100
AcDbSymbolTable
70
1
0
ENDTAB
0
TABLE
2
BLOCK_RECORD
5
1
100
AcDbSymbolTable
70
1
0
BLOCK_RECORD
5
1F
100
AcDbSymbolTableRecord
100
AcDbBlockTableRecord
2
*MODEL_SPACE
0
BLOCK_RECORD
5
1B
100
AcDbSymbolTableRecord
100
AcDbBlockTableRecord
2
*PAPER_SPACE
0
ENDTAB
0
ENDSEC
0
SECTION
2
BLOCKS
0
BLOCK
5
20
100
AcDbEntity
100
AcDbBlockBegin
2
*MODEL_SPACE
0
ENDBLK
5
21
100
AcDbEntity
100
AcDbBlockEnd
0
BLOCK
5
1C
100
AcDbEntity
100
AcDbBlockBegin
2
*PAPER_SPACE
0
ENDBLK
5
1D
100
AcDbEntity
100
AcDbBlockEnd
0
ENDSEC
0
SECTION
2
ENTITIES
0
CIRCLE
5
100
100
AcDbEntity
8
0
100
AcDbCircle
10
66.691167854491852
20
77.899999999999949
30
0
40
1.2999999999999989
210
0
220
0
230
1
0
CIRCLE
5
101
100
AcDbEntity
8
0
100
AcDbCircle
10
26.691167854491844
20
77.899999999999892
30
0
40
1.3000000000000034
210
0
220
0
230
1
0
CIRCLE
5
102
100
AcDbEntity
8
0
100
AcDbCircle
10
36.691167854491688
20
125
30
0
40
1.2999999999999989
210
0
220
0
230
1
0
CIRCLE
5
103
100
AcDbEntity
8
0
100
AcDbCircle
10
76.691167854491681
20
124.99999999999993
30
0
40
1.2999999999999989
210
0
220
0
230
1
0
CIRCLE
5
104
100
AcDbEntity
8
0
100
AcDbCircle
10
76.691167854491667
20
172.10000000000002
30
0
40
1.2999999999999989
210
0
220
0
230
1
0
CIRCLE
5
105
100
AcDbEntity
8
0
100
AcDbCircle
10
36.691167854491667
20
172.09999999999985
30
0
40
1.2999999999999989
210
0
220
0
230
1
0
CIRCLE
5
106
100
AcDbEntity
8
0
100
AcDbCircle
10
26.691167854491667
20
172.09999999999985
30
0
40
1.3000000000000034
210
0
220
0
230
1
0
CIRCLE
5
107
100
AcDbEntity
8
0
100
AcDbCircle
10
66.691167854491667
20
172.09999999999994
30
0
40
1.2999999999999989
210
0
220
0
230
1
0
CIRCLE
5
108
100
AcDbEntity
8
0
100
AcDbCircle
10
86.691167854491695
20
125.00000000000001
30
0
40
1.3000000000000078
210
0
220
0
230
1
0
CIRCLE
5
109
100
AcDbEntity
8
0
100
AcDbCircle
10
46.691167854491688
20
124.99999999999999
30
0
40
1.2999999999999989
210
0
220
0
230
1
0
CIRCLE
5
110
100
AcDbEntity
8
0
100
AcDbCircle
10
16.691167854491844
20
77.899999999999849
30
0
40
1.2999999999999967
210
0
220
0
230
1
0
CIRCLE
5
111
100
AcDbEntity
8
0
100
AcDbCircle
10
56.691167854491844
20
77.899999999999892
30
0
40
1.2999999999999989
210
0
220
0
230
1
0
CIRCLE
5
112
100
AcDbEntity
8
0
100
AcDbCircle
10
76.691167854491852
20
77.89999999999992
30
0
40
1.2999999999999989
210
0
220
0
230
1
0
CIRCLE
5
113
100
AcDbEntity
8
0
100
AcDbCircle
10
36.691167854491844
20
77.89999999999992
30
0
40
1.2999999999999989
210
0
220
0
230
1
0
CIRCLE
5
114
100
AcDbEntity
8
0
100
AcDbCircle
10
26.691167854491688
20
125
30
0
40
1.3000000000000034
210
0
220
0
230
1
0
CIRCLE
5
115
100
AcDbEntity
8
0
100
AcDbCircle
10
66.691167854491681
20
124.99999999999999
30
0
40
1.2999999999999989
210
0
220
0
230
1
0
CIRCLE
5
116
100
AcDbEntity
8
0
100
AcDbCircle
10
86.691167854491681
20
172.09999999999991
30
0
40
1.3000000000000078
210
0
220
0
230
1
0
CIRCLE
5
117
100
AcDbEntity
8
0
100
AcDbCircle
10
46.69116785449166
20
172.09999999999991
30
0
40
1.2999999999999989
210
0
220
0
230
1
0
CIRCLE
5
118
100
AcDbEntity
8
0
100
AcDbCircle
10
16.691167854491667
20
172.09999999999985
30
0
40
1.2999999999999967
210
0
220
0
230
1
0
CIRCLE
5
119
100
AcDbEntity
8
0
100
AcDbCircle
10
56.691167854491667
20
172.09999999999997
30
0
40
1.2999999999999989
210
0
220
0
230
1
0
CIRCLE
5
120
100
AcDbEntity
8
0
100
AcDbCircle
10
96.691167854491695
20
124.99999999999993
30
0
40
1.2999999999999901
210
0
220
0
230
1
0
CIRCLE
5
121
100
AcDbEntity
8
0
100
AcDbCircle
10
56.691167854491688
20
124.99999999999993
30
0
40
1.2999999999999989
210
0
220
0
230
1
0
CIRCLE
5
122
100
AcDbEntity
8
0
100
AcDbCircle
10
16.691167854491688
20
125
30
0
40
1.2999999999999945
210
0
220
0
230
1
0
CIRCLE
5
123
100
AcDbEntity
8
0
100
AcDbCircle
10
46.691167854491837
20
77.89999999999992
30
0
40
1.2999999999999989
210
0
220
0
230
1
0
CIRCLE
5
124
100
AcDbEntity
8
0
100
AcDbCircle
10
86.691167854491852
20
77.900000000000063
30
0
40
1.3000000000000078
210
0
220
0
230
1
0
LWPOLYLINE
5
125
100
AcDbEntity
8
0
100
AcDbPolyline
90
4
70
1
43
0.0
10
14.899999999998705
20
148.89999999999986
42
-0.99999999999999989
10
14.899999999998705
20
152.09999999999985
10
100.09999999999869
20
152.10000000000005
42
-0.99999999999999989
10
100.09999999999872
20
148.90000000000003
0
LWPOLYLINE
5
126
100
AcDbEntity
8
0
100
AcDbPolyline
90
4
70
1
43
0.0
10
14.899999999998705
20
97.899999999999807
42
-0.99999999999999989
10
14.899999999998705
20
101.09999999999982
10
100.0999999999987
20
101.09999999999982
42
-0.99999999999999989
10
100.0999999999987
20
97.899999999999807
0
CIRCLE
5
127
100
AcDbEntity
8
0
100
AcDbCircle
10
30.978999999998695
20
159.49999999999991
30
0
40
1.3000000000000034
210
0
220
0
230
1
0
CIRCLE
5
128
100
AcDbEntity
8
0
100
AcDbCircle
10
30.97899999999871
20
90.499999999999815
30
0
40
1.3000000000000034
210
0
220
0
230
1
0
CIRCLE
5
129
100
AcDbEntity
8
0
100
AcDbCircle
10
92.499999999998693
20
159.5
30
0
40
1.2999999999999901
210
0
220
0
230
1
0
CIRCLE
5
130
100
AcDbEntity
8
0
100
AcDbCircle
10
92.499999999998707
20
90.499999999999815
30
0
40
1.2999999999999901
210
0
220
0
230
1
0
CIRCLE
5
131
100
AcDbEntity
8
0
100
AcDbCircle
10
119.84428538852367
20
65.605828541230267
30
0
40
1.2999999999999901
210
0
220
0
230
1
0
CIRCLE
5
132
100
AcDbEntity
8
0
100
AcDbCircle
10
0
20
12.000000000000002
30
0
40
1.3000000000000007
210
0
220
0
230
1
0
CIRCLE
5
133
100
AcDbEntity
8
0
100
AcDbCircle
10
97.860870627641589
20
68.500000000000014
30
0
40
1.2999999999999901
210
0
220
0
230
1
0
CIRCLE
5
134
100
AcDbEntity
8
0
100
AcDbCircle
10
-8.4852813742385731
20
8.4852813742385713
30
0
40
1.3
210
0
220
0
230
1
0
CIRCLE
5
135
100
AcDbEntity
8
0
100
AcDbCircle
10
108.25317547305485
20
62.500000000000014
30
0
40
8.9999999999999858
210
0
220
0
230
1
0
CIRCLE
5
136
100
AcDbEntity
8
0
100
AcDbCircle
10
0
20
0
30
0
40
9
210
0
220
0
230
1
0
CIRCLE
5
137
100
AcDbEntity
8
0
100
AcDbCircle
10
108.25317547305485
20
187.5
30
0
40
9.0000000000000036
210
0
220
0
230
1
0
CIRCLE
5
138
100
AcDbEntity
8
0
100
AcDbCircle
10
111.35900401428512
20
199.09110991546879
30
0
40
1.2999999999999901
210
0
220
0
230
1
0
CIRCLE
5
139
100
AcDbEntity
8
0
100
AcDbCircle
10
0
20
250
30
0
40
9
210
0
220
0
230
1
0
CIRCLE
5
140
100
AcDbEntity
8
0
100
AcDbCircle
10
102.25317547305485
20
197.89230484541324
30
0
40
1.2999999999999901
210
0
220
0
230
1
0
CIRCLE
5
141
100
AcDbEntity
8
0
100
AcDbCircle
10
119.84428538852367
20
184.39417145876973
30
0
40
1.2999999999999901
210
0
220
0
230
1
0
CIRCLE
5
142
100
AcDbEntity
8
0
100
AcDbCircle
10
96.662065557586033
20
59.394171458769748
30
0
40
1.2999999999999901
210
0
220
0
230
1
0
CIRCLE
5
143
100
AcDbEntity
8
0
100
AcDbCircle
10
105.14734693182459
20
74.09110991546882
30
0
40
1.2999999999999901
210
0
220
0
230
1
0
CIRCLE
5
144
100
AcDbEntity
8
0
100
AcDbCircle
10
118.6454803184681
20
56.500000000000028
30
0
40
1.2999999999999901
210
0
220
0
230
1
0
CIRCLE
5
145
100
AcDbEntity
8
0
100
AcDbCircle
10
118.6454803184681
20
193.49999999999997
30
0
40
1.2999999999999901
210
0
220
0
230
1
0
CIRCLE
5
146
100
AcDbEntity
8
0
100
AcDbCircle
10
96.662065557586033
20
190.60582854123027
30
0
40
1.2999999999999901
210
0
220
0
230
1
0
CIRCLE
5
147
100
AcDbEntity
8
0
100
AcDbCircle
10
102.25317547305485
20
52.107695154586757
30
0
40
1.2999999999999901
210
0
220
0
230
1
0
CIRCLE
5
148
100
AcDbEntity
8
0
100
AcDbCircle
10
-1.4695761589768241e-15
20
-12.000000000000002
30
0
40
1.3000000000000007
210
0
220
0
230
1
0
CIRCLE
5
149
100
AcDbEntity
8
0
100
AcDbCircle
10
-12.000000000000002
20
2.6645352591003761e-15
30
0
40
1.3000000000000012
210
0
220
0
230
1
0
CIRCLE
5
150
100
AcDbEntity
8
0
100
AcDbCircle
10
-8.4852813742385731
20
-8.4852813742385713
30
0
40
1.3000000000000012
210
0
220
0
230
1
0
CIRCLE
5
151
100
AcDbEntity
8
0
100
AcDbCircle
10
8.4852813742385713
20
-8.4852813742385713
30
0
40
1.3000000000000012
210
0
220
0
230
1
0
CIRCLE
5
152
100
AcDbEntity
8
0
100
AcDbCircle
10
8.4852813742385713
20
258.48528137423853
30
0
40
1.3000000000000012
210
0
220
0
230
1
0
CIRCLE
5
153
100
AcDbEntity
8
0
100
AcDbCircle
10
8.4852813742385731
20
8.4852813742385713
30
0
40
1.3000000000000012
210
0
220
0
230
1
0
CIRCLE
5
154
100
AcDbEntity
8
0
100
AcDbCircle
10
-12.000000000000002
20
250
30
0
40
1.3000000000000012
210
0
220
0
230
1
0
CIRCLE
5
155
100
AcDbEntity
8
0
100
AcDbCircle
10
12.000000000000002
20
-2.6645352591003761e-15
30
0
40
1.3000000000000012
210
0
220
0
230
1
0
CIRCLE
5
156
100
AcDbEntity
8
0
100
AcDbCircle
10
0
20
238
30
0
40
1.3000000000000007
210
0
220
0
230
1
0
CIRCLE
5
157
100
AcDbEntity
8
0
100
AcDbCircle
10
8.4852813742385731
20
241.51471862576145
30
0
40
1.3000000000000012
210
0
220
0
230
1
0
CIRCLE
5
158
100
AcDbEntity
8
0
100
AcDbCircle
10
12.000000000000002
20
250
30
0
40
1.3000000000000012
210
0
220
0
230
1
0
CIRCLE
5
159
100
AcDbEntity
8
0
100
AcDbCircle
10
111.35900401428512
20
50.908890084531208
30
0
40
1.2999999999999901
210
0
220
0
230
1
0
CIRCLE
5
160
100
AcDbEntity
8
0
100
AcDbCircle
10
-8.4852813742385731
20
241.51471862576145
30
0
40
1.3
210
0
220
0
230
1
0
CIRCLE
5
161
100
AcDbEntity
8
0
100
AcDbCircle
10
114.25317547305485
20
177.10769515458674
30
0
40
1.2999999999999901
210
0
220
0
230
1
0
CIRCLE
5
162
100
AcDbEntity
8
0
100
AcDbCircle
10
-1.4695761589768241e-15
20
262
30
0
40
1.3000000000000007
210
0
220
0
230
1
0
CIRCLE
5
163
100
AcDbEntity
8
0
100
AcDbCircle
10
97.860870627641589
20
181.5
30
0
40
1.2999999999999901
210
0
220
0
230
1
0
CIRCLE
5
164
100
AcDbEntity
8
0
100
AcDbCircle
10
114.25317547305485
20
72.892304845413278
30
0
40
1.2999999999999901
210
0
220
0
230
1
0
CIRCLE
5
165
100
AcDbEntity
8
0
100
AcDbCircle
10
-8.4852813742385731
20
258.48528137423853
30
0
40
1.3000000000000012
210
0
220
0
230
1
0
CIRCLE
5
166
100
AcDbEntity
8
0
100
AcDbCircle
10
105.14734693182459
20
175.90889008453118
30
0
40
1.2999999999999901
210
0
220
0
230
1
0
LWPOLYLINE
5
167
100
AcDbEntity
8
0
100
AcDbPolyline
90
8
70
1
43
0.0
10
18.128091000353542
20
-8.4482138161211804
42
-0.94230022870896635
10
-19.001560062402589
20
6.2402496099839588
42
0.1599999999999934
10
-19.001560062402582
20
243.75975039001591
42
-0.94230022870896757
10
18.128091000353503
20
258.44821381612127
42
0.31542468557343645
10
106.50549775424182
20
207.42349423648284
42
-0.5877560915786525
10
126.11001211982287
20
178.49259277202134
42
0.23793343622512284
10
126.11001211982285
20
71.507407227978717
42
-0.58775609157865416
10
106.50549775424176
20
42.576505763517204
42
0.31542468557343689
0
ENDSEC
0
SECTION
2
OBJECTS
0
DICTIONARY
5
C
100
AcDbDictionary
3
ACAD_GROUP
350
D
3
ACAD_MLINESTYLE
350
17
0
DICTIONARY
5
D
100
AcDbDictionary
0
DICTIONARY
5
1A
330
C
100
AcDbDictionary
0
DICTIONARY
5
17
100
AcDbDictionary
0
ENDSEC
0
EOF
