0
SECTION
2
HEADER
9
$INSUNITS
70
4
9
$ACADVER
1
AC1014
9
$HANDSEED
5
FFFF
0
ENDSEC
0
SECTION
2
TABLES
0
TABLE
2
VPORT
5
8
100
AcDbSymbolTable
0
ENDTAB
0
TABLE
2
LTYPE
5
5
100
AcDbSymbolTable
0
LTYPE
5
14
100
AcDbSymbolTableRecord
100
AcDbLinetypeTableRecord
2
BYBLOCK
70
0
0
LTYPE
5
15
100
AcDbSymbolTableRecord
100
AcDbLinetypeTableRecord
2
BYLAYER
70
0
0
ENDTAB
0
TABLE
2
LAYER
5
2
100
AcDbSymbolTable
70
2
0
LAYER
5
50
100
AcDbSymbolTableRecord
100
AcDbLayerTableRecord
2
0
70
0
6
CONTINUOUS
0
ENDTAB
0
TABLE
2
STYLE
5
3
100
AcDbSymbolTable
70
1
0
STYLE
5
11
100
AcDbSymbolTableRecord
100
AcDbTextStyleTableRecord
2
STANDARD
70
0
0
ENDTAB
0
TABLE
2
VIEW
5
6
100
AcDbSymbolTable
70
0
0
ENDTAB
0
TABLE
2
UCS
5
7
100
AcDbSymbolTable
70
0
0
ENDTAB
0
TABLE
2
APPID
5
9
100
AcDbSymbolTable
70
2
0
APPID
5
12
100
AcDbSymbolTableRecord
100
AcDbRegAppTableRecord
2
ACAD
70
0
0
ENDTAB
0
TABLE
2
DIMSTYLE
5
A
100
AcDbSymbolTable
70
1
0
ENDTAB
0
TABLE
2
BLOCK_RECORD
5
1
100
AcDbSymbolTable
70
1
0
BLOCK_RECORD
5
1F
100
AcDbSymbolTableRecord
100
AcDbBlockTableRecord
2
*MODEL_SPACE
0
BLOCK_RECORD
5
1B
100
AcDbSymbolTableRecord
100
AcDbBlockTableRecord
2
*PAPER_SPACE
0
ENDTAB
0
ENDSEC
0
SECTION
2
BLOCKS
0
BLOCK
5
20
100
AcDbEntity
100
AcDbBlockBegin
2
*MODEL_SPACE
0
ENDBLK
5
21
100
AcDbEntity
100
AcDbBlockEnd
0
BLOCK
5
1C
100
AcDbEntity
100
AcDbBlockBegin
2
*PAPER_SPACE
0
ENDBLK
5
1D
100
AcDbEntity
100
AcDbBlockEnd
0
ENDSEC
0
SECTION
2
ENTITIES
0
CIRCLE
5
100
100
AcDbEntity
8
0
100
AcDbCircle
10
-24.000000000000004
20
50
30
0
40
1.3499999999999979
210
0
220
-0
230
1
0
CIRCLE
5
101
100
AcDbEntity
8
0
100
AcDbCircle
10
-24.000000000000004
20
35
30
0
40
1.3499999999999979
210
0
220
-0
230
1
0
CIRCLE
5
102
100
AcDbEntity
8
0
100
AcDbCircle
10
-24.000000000000004
20
20
30
0
40
1.3500000000000023
210
0
220
-0
230
1
0
LINE
5
103
100
AcDbEntity
8
0
100
AcDbLine
10
-11.000000163912775
20
150
30
0
11
-37.000000000000014
21
150
31
0
0
LINE
5
104
100
AcDbEntity
8
0
100
AcDbLine
10
-37.000000000000014
20
150
30
0
11
-37.000000137835741
21
130.00000017918646
31
0
0
LINE
5
105
100
AcDbEntity
8
0
100
AcDbLine
10
-37.000000137835741
20
130.00000017918646
30
0
11
-33.999999999999993
21
130.00000015851111
31
0
0
ARC
5
106
100
AcDbEntity
8
0
100
AcDbCircle
10
-34
20
128.25000015851111
30
0
40
1.7500000000000071
210
0
220
0
230
1
100
AcDbArc
50
-90.000000000000199
51
89.999999999999773
0
LINE
5
107
100
AcDbEntity
8
0
100
AcDbLine
10
-34.000000000000007
20
126.50000015851109
30
0
11
-34.000000000000441
21
113.5
31
0
0
ARC
5
108
100
AcDbEntity
8
0
100
AcDbCircle
10
-34.000000000000014
20
111.75
30
0
40
1.7500000000000071
210
-0
220
0
230
1
100
AcDbArc
50
-89.999999999999304
51
90.000000000013955
0
LINE
5
109
100
AcDbEntity
8
0
100
AcDbLine
10
-33.999999999999993
20
110.00000007925556
30
0
11
-37.000000275671489
21
110.00000017918649
31
0
0
ARC
5
110
100
AcDbEntity
8
0
100
AcDbCircle
10
-101.14286018086936
20
110.00000062124535
30
0
40
64.142859905197867
210
0
220
0
230
1
100
AcDbArc
50
321.41990882010674
51
360
0
LINE
5
111
100
AcDbEntity
8
0
100
AcDbLine
10
-50.999999999999986
20
70.000000000000028
30
0
11
-47.999999999457117
21
70.000000000000014
31
0
0
ARC
5
112
100
AcDbEntity
8
0
100
AcDbCircle
10
-48.000000312924477
20
68.250000000000043
30
0
40
1.7499999999999996
210
0
220
0
230
1
100
AcDbArc
50
-89.99998975471344
51
89.999989736939
0
LINE
5
113
100
AcDbEntity
8
0
100
AcDbLine
10
-48.000000000000007
20
66.500000000000071
30
0
11
-48.000000000407319
21
58.499999999999908
31
0
0
ARC
5
114
100
AcDbEntity
8
0
100
AcDbCircle
10
-48.0000004172324
20
56.749999999999957
30
0
40
1.7500000000000036
210
-0
220
0
230
1
100
AcDbArc
50
-89.999986339625622
51
89.999986352961173
0
LINE
5
115
100
AcDbEntity
8
0
100
AcDbLine
10
-48.000000000000007
20
55
30
0
11
-51.000000000000007
21
55
31
0
0
LINE
5
116
100
AcDbEntity
8
0
100
AcDbLine
10
-51.000000000000007
20
55
30
0
11
-51.000000000000007
21
25
31
0
0
LINE
5
117
100
AcDbEntity
8
0
100
AcDbLine
10
-51.000000000000007
20
25
30
0
11
-48.000000000000078
21
25
31
0
0
ARC
5
118
100
AcDbEntity
8
0
100
AcDbCircle
10
-48.000000417232556
20
23.25000000000005
30
0
40
1.7499999999999991
210
-0
220
0
230
1
100
AcDbArc
50
-89.999986339620492
51
89.999986339622822
0
LINE
5
119
100
AcDbEntity
8
0
100
AcDbLine
10
-48.000000000000007
20
21.500000000000099
30
0
11
-48.000000000000007
21
0
31
0
0
LINE
5
120
100
AcDbEntity
8
0
100
AcDbLine
10
-48.000000000000007
20
0
30
0
11
0
21
0
31
0
0
LINE
5
121
100
AcDbEntity
8
0
100
AcDbLine
10
0
20
0
30
0
11
0
21
21.500000000000004
31
0
0
ARC
5
122
100
AcDbEntity
8
0
100
AcDbCircle
10
6.9388939039072284e-16
20
23.25
30
0
40
1.7499999999999982
210
0
220
0
230
1
100
AcDbArc
50
90.000000000000014
51
270
0
LINE
5
123
100
AcDbEntity
8
0
100
AcDbLine
10
1.0715659492539335e-16
20
25
30
0
11
3.0000000447034836
21
25
31
0
0
LINE
5
124
100
AcDbEntity
8
0
100
AcDbLine
10
3.0000000447034836
20
25
30
0
11
3.0000000447034836
21
55
31
0
0
LINE
5
125
100
AcDbEntity
8
0
100
AcDbLine
10
3.0000000447034836
20
55
30
0
11
0
21
55
31
0
0
ARC
5
126
100
AcDbEntity
8
0
100
AcDbCircle
10
-3.7470027081099033e-15
20
56.75
30
0
40
1.7499999999999982
210
0
220
-0
230
1
100
AcDbArc
50
89.999999999999872
51
270.00000000000011
0
LINE
5
127
100
AcDbEntity
8
0
100
AcDbLine
10
1.0715659492539335e-16
20
58.5
30
0
11
0
21
66.5
31
0
0
ARC
5
128
100
AcDbEntity
8
0
100
AcDbCircle
10
-3.7470027081099033e-15
20
68.25
30
0
40
1.7499999999999982
210
0
220
-0
230
1
100
AcDbArc
50
89.999999999999872
51
270.00000000000011
0
LINE
5
129
100
AcDbEntity
8
0
100
AcDbLine
10
1.0715659492539335e-16
20
70
30
0
11
3.0000000000000049
21
70
31
0
0
ARC
5
130
100
AcDbEntity
8
0
100
AcDbCircle
10
53.142856391869046
20
110
30
0
40
64.142856555781833
210
0
220
0
230
1
100
AcDbArc
50
180
51
218.58009285670752
0
LINE
5
131
100
AcDbEntity
8
0
100
AcDbLine
10
-11.000000163912791
20
109.99999999999997
30
0
11
-13.999731006931997
21
110.00000002067351
31
0
0
ARC
5
132
100
AcDbEntity
8
0
100
AcDbCircle
10
-14.000000000000007
20
111.75
30
0
40
1.7500000000000071
210
0
220
-0
230
1
100
AcDbArc
50
89.999999999999901
51
270.00880695290056
0
LINE
5
133
100
AcDbEntity
8
0
100
AcDbLine
10
-14.000000000000004
20
113.50000000000001
30
0
11
-14.000000000753797
21
126.50000002067534
31
0
0
ARC
5
134
100
AcDbEntity
8
0
100
AcDbCircle
10
-14.000000000000005
20
128.25000002067534
30
0
40
1.7500000000000071
210
0
220
-0
230
1
100
AcDbArc
50
89.999999605129673
51
269.99999960512963
0
LINE
5
135
100
AcDbEntity
8
0
100
AcDbLine
10
-13.999999987939377
20
130.00000002067534
30
0
11
-11.00000016391278
21
130
31
0
0
LINE
5
136
100
AcDbEntity
8
0
100
AcDbLine
10
-11.00000016391278
20
130
30
0
11
-11.000000163912775
21
150
31
0
0
ENDSEC
0
SECTION
2
OBJECTS
0
DICTIONARY
5
C
100
AcDbDictionary
3
ACAD_GROUP
350
D
3
ACAD_MLINESTYLE
350
17
0
DICTIONARY
5
D
100
AcDbDictionary
0
DICTIONARY
5
1A
330
C
100
AcDbDictionary
0
DICTIONARY
5
17
100
AcDbDictionary
0
ENDSEC
0
EOF
