0
SECTION
2
HEADER
9
$INSUNITS
70
4
9
$ACADVER
1
AC1014
9
$HANDSEED
5
FFFF
0
ENDSEC
0
SECTION
2
TABLES
0
TABLE
2
VPORT
5
8
100
AcDbSymbolTable
0
ENDTAB
0
TABLE
2
LTYPE
5
5
100
AcDbSymbolTable
0
LTYPE
5
14
100
AcDbSymbolTableRecord
100
AcDbLinetypeTableRecord
2
BYBLOCK
70
0
0
LTYPE
5
15
100
AcDbSymbolTableRecord
100
AcDbLinetypeTableRecord
2
BYLAYER
70
0
0
ENDTAB
0
TABLE
2
LAYER
5
2
100
AcDbSymbolTable
70
2
0
LAYER
5
50
100
AcDbSymbolTableRecord
100
AcDbLayerTableRecord
2
0
70
0
6
CONTINUOUS
0
ENDTAB
0
TABLE
2
STYLE
5
3
100
AcDbSymbolTable
70
1
0
STYLE
5
11
100
AcDbSymbolTableRecord
100
AcDbTextStyleTableRecord
2
STANDARD
70
0
0
ENDTAB
0
TABLE
2
VIEW
5
6
100
AcDbSymbolTable
70
0
0
ENDTAB
0
TABLE
2
UCS
5
7
100
AcDbSymbolTable
70
0
0
ENDTAB
0
TABLE
2
APPID
5
9
100
AcDbSymbolTable
70
2
0
APPID
5
12
100
AcDbSymbolTableRecord
100
AcDbRegAppTableRecord
2
ACAD
70
0
0
ENDTAB
0
TABLE
2
DIMSTYLE
5
A
100
AcDbSymbolTable
70
1
0
ENDTAB
0
TABLE
2
BLOCK_RECORD
5
1
100
AcDbSymbolTable
70
1
0
BLOCK_RECORD
5
1F
100
AcDbSymbolTableRecord
100
AcDbBlockTableRecord
2
*MODEL_SPACE
0
BLOCK_RECORD
5
1B
100
AcDbSymbolTableRecord
100
AcDbBlockTableRecord
2
*PAPER_SPACE
0
ENDTAB
0
ENDSEC
0
SECTION
2
BLOCKS
0
BLOCK
5
20
100
AcDbEntity
100
AcDbBlockBegin
2
*MODEL_SPACE
0
ENDBLK
5
21
100
AcDbEntity
100
AcDbBlockEnd
0
BLOCK
5
1C
100
AcDbEntity
100
AcDbBlockBegin
2
*PAPER_SPACE
0
ENDBLK
5
1D
100
AcDbEntity
100
AcDbBlockEnd
0
ENDSEC
0
SECTION
2
ENTITIES
0
LWPOLYLINE
5
100
100
AcDbEntity
8
0
100
AcDbPolyline
90
4
70
1
43
0.0
10
-79.999999999999986
20
8.5000000000000071
10
-69.999999999999986
20
8.5000000000000071
42
0.99999999999999989
10
-69.999999999999986
20
11.500000000000007
10
-79.999999999999986
20
11.500000000000007
42
0.99999999999999989
0
ARC
5
101
100
AcDbEntity
8
0
100
AcDbCircle
10
0
20
0
30
0
40
15
210
0
220
0
230
1
100
AcDbArc
50
-90
51
90
0
LINE
5
102
100
AcDbEntity
8
0
100
AcDbLine
10
1.8369701987210296e-15
20
15
30
0
11
-22.099999999999987
21
14.999999999999984
31
0
0
LINE
5
103
100
AcDbEntity
8
0
100
AcDbLine
10
-22.099999999999987
20
14.999999999999984
30
0
11
-35.591082771089503
21
127.42568975907913
31
0
0
LINE
5
104
100
AcDbEntity
8
0
100
AcDbLine
10
-35.591082771089503
20
127.42568975907913
30
0
11
2.9999999999999805
21
135.30306154330091
31
0
0
ARC
5
105
100
AcDbEntity
8
0
100
AcDbCircle
10
0
20
150
30
0
40
15.000000000000016
210
-0
220
0
230
1
100
AcDbArc
50
-78.463040967184611
51
101.53695903281555
0
LINE
5
106
100
AcDbEntity
8
0
100
AcDbLine
10
-3.0000000000000151
20
164.69693845669909
30
0
11
-74.999999999999986
21
150
31
0
0
LINE
5
107
100
AcDbEntity
8
0
100
AcDbLine
10
-74.999999999999986
20
150
30
0
11
-146.99999999999994
21
164.69693845669906
31
0
0
ARC
5
108
100
AcDbEntity
8
0
100
AcDbCircle
10
-149.99999999999997
20
149.99999999999997
30
0
40
15.000000000000007
210
0
220
-0
230
1
100
AcDbArc
50
78.463040967184426
51
258.4630409671845
0
LINE
5
109
100
AcDbEntity
8
0
100
AcDbLine
10
-152.99999999999997
20
135.30306154330088
30
0
11
-114.4089172289107
21
127.42568975907767
31
0
0
LINE
5
110
100
AcDbEntity
8
0
100
AcDbLine
10
-114.4089172289107
20
127.42568975907767
30
0
11
-127.90000000000003
21
14.999999999999982
31
0
0
LINE
5
111
100
AcDbEntity
8
0
100
AcDbLine
10
-127.90000000000003
20
14.999999999999982
30
0
11
-149.99999999999997
21
14.999999999999984
31
0
0
ARC
5
112
100
AcDbEntity
8
0
100
AcDbCircle
10
-149.99999999999997
20
0
30
0
40
14.999999999999984
210
0
220
-0
230
1
100
AcDbArc
50
90
51
270
0
LINE
5
113
100
AcDbEntity
8
0
100
AcDbLine
10
-149.99999999999997
20
-14.99999999999998
30
0
11
-3.6739403974420592e-15
21
-15
31
0
0
CIRCLE
5
114
100
AcDbEntity
8
0
100
AcDbCircle
10
3.1058285412304532
20
138.40889008453127
30
0
40
1.3000000000000023
210
0
220
-0
230
1
0
CIRCLE
5
115
100
AcDbEntity
8
0
100
AcDbCircle
10
-3.1058285412304576
20
161.59110991546873
30
0
40
1.3000000000000023
210
0
220
-0
230
1
0
CIRCLE
5
116
100
AcDbEntity
8
0
100
AcDbCircle
10
0
20
150
30
0
40
9
210
0
220
-0
230
1
0
CIRCLE
5
117
100
AcDbEntity
8
0
100
AcDbCircle
10
-160.39230484541315
20
143.99999999999977
30
0
40
1.3000000000000078
210
0
220
-0
230
1
0
CIRCLE
5
118
100
AcDbEntity
8
0
100
AcDbCircle
10
-139.60769515458682
20
156.0000000000002
30
0
40
1.3000000000000078
210
0
220
-0
230
1
0
CIRCLE
5
119
100
AcDbEntity
8
0
100
AcDbCircle
10
-149.99999999999997
20
11.999999999999995
30
0
40
1.3000000000000078
210
0
220
-0
230
1
0
CIRCLE
5
120
100
AcDbEntity
8
0
100
AcDbCircle
10
-141.51471862576142
20
8.4852813742385713
30
0
40
1.3000000000000078
210
0
220
-0
230
1
0
CIRCLE
5
121
100
AcDbEntity
8
0
100
AcDbCircle
10
-12.000000000000002
20
6.3384756565424357e-15
30
0
40
1.2999999999999989
210
0
220
-0
230
1
0
CIRCLE
5
122
100
AcDbEntity
8
0
100
AcDbCircle
10
12.000000000000002
20
-6.3384756565424357e-15
30
0
40
1.2999999999999989
210
0
220
-0
230
1
0
CIRCLE
5
123
100
AcDbEntity
8
0
100
AcDbCircle
10
0
20
0
30
0
40
9
210
0
220
-0
230
1
0
CIRCLE
5
124
100
AcDbEntity
8
0
100
AcDbCircle
10
8.4852813742385749
20
8.4852813742385695
30
0
40
1.3
210
0
220
-0
230
1
0
CIRCLE
5
125
100
AcDbEntity
8
0
100
AcDbCircle
10
-8.4852813742385749
20
-8.4852813742385695
30
0
40
1.3
210
0
220
-0
230
1
0
CIRCLE
5
126
100
AcDbEntity
8
0
100
AcDbCircle
10
-138
20
0
30
0
40
1.3000000000000078
210
0
220
-0
230
1
0
CIRCLE
5
127
100
AcDbEntity
8
0
100
AcDbCircle
10
-158.48528137423855
20
-8.4852813742385713
30
0
40
1.3000000000000078
210
0
220
-0
230
1
0
CIRCLE
5
128
100
AcDbEntity
8
0
100
AcDbCircle
10
-138.40889008453109
20
146.89417145876996
30
0
40
1.3000000000000078
210
0
220
-0
230
1
0
CIRCLE
5
129
100
AcDbEntity
8
0
100
AcDbCircle
10
-161.59110991546885
20
153.10582854123001
30
0
40
1.2999999999999901
210
0
220
-0
230
1
0
CIRCLE
5
130
100
AcDbEntity
8
0
100
AcDbCircle
10
10.392304845413364
20
144.0000000000002
30
0
40
1.3000000000000034
210
0
220
-0
230
1
0
CIRCLE
5
131
100
AcDbEntity
8
0
100
AcDbCircle
10
-10.392304845413365
20
155.99999999999983
30
0
40
1.3000000000000023
210
0
220
-0
230
1
0
CIRCLE
5
132
100
AcDbEntity
8
0
100
AcDbCircle
10
-5.9999999999998099
20
139.60769515458662
30
0
40
1.3000000000000023
210
0
220
-0
230
1
0
CIRCLE
5
133
100
AcDbEntity
8
0
100
AcDbCircle
10
5.9999999999998055
20
160.39230484541335
30
0
40
1.3000000000000023
210
0
220
-0
230
1
0
CIRCLE
5
134
100
AcDbEntity
8
0
100
AcDbCircle
10
-146.89417145876996
20
161.59110991546891
30
0
40
1.3000000000000078
210
0
220
-0
230
1
0
CIRCLE
5
135
100
AcDbEntity
8
0
100
AcDbCircle
10
-153.10582854123001
20
138.40889008453109
30
0
40
1.3000000000000078
210
0
220
-0
230
1
0
CIRCLE
5
136
100
AcDbEntity
8
0
100
AcDbCircle
10
-149.99999999999997
20
149.99999999999997
30
0
40
8.9999999999999858
210
0
220
-0
230
1
0
CIRCLE
5
137
100
AcDbEntity
8
0
100
AcDbCircle
10
-162
20
0
30
0
40
1.2999999999999901
210
0
220
-0
230
1
0
CIRCLE
5
138
100
AcDbEntity
8
0
100
AcDbCircle
10
-141.51471862576142
20
-8.4852813742385713
30
0
40
1.3000000000000078
210
0
220
-0
230
1
0
CIRCLE
5
139
100
AcDbEntity
8
0
100
AcDbCircle
10
-8.4852813742385695
20
8.4852813742385731
30
0
40
1.3
210
0
220
-0
230
1
0
CIRCLE
5
140
100
AcDbEntity
8
0
100
AcDbCircle
10
8.4852813742385695
20
-8.4852813742385731
30
0
40
1.3
210
0
220
-0
230
1
0
CIRCLE
5
141
100
AcDbEntity
8
0
100
AcDbCircle
10
-3.6739403974420592e-15
20
-12.000000000000002
30
0
40
1.2999999999999998
210
0
220
-0
230
1
0
CIRCLE
5
142
100
AcDbEntity
8
0
100
AcDbCircle
10
5.1435165564188825e-15
20
12.000000000000002
30
0
40
1.2999999999999998
210
0
220
-0
230
1
0
CIRCLE
5
143
100
AcDbEntity
8
0
100
AcDbCircle
10
-149.99999999999997
20
-11.999999999999995
30
0
40
1.3000000000000078
210
0
220
-0
230
1
0
CIRCLE
5
144
100
AcDbEntity
8
0
100
AcDbCircle
10
-158.48528137423855
20
8.4852813742385713
30
0
40
1.3000000000000078
210
0
220
-0
230
1
0
CIRCLE
5
145
100
AcDbEntity
8
0
100
AcDbCircle
10
-149.99999999999997
20
0
30
0
40
9.0000000000000036
210
0
220
-0
230
1
0
CIRCLE
5
146
100
AcDbEntity
8
0
100
AcDbCircle
10
-143.99999999999977
20
139.60769515458682
30
0
40
1.3000000000000078
210
0
220
-0
230
1
0
CIRCLE
5
147
100
AcDbEntity
8
0
100
AcDbCircle
10
-156.0000000000002
20
160.39230484541315
30
0
40
1.3000000000000078
210
0
220
-0
230
1
0
CIRCLE
5
148
100
AcDbEntity
8
0
100
AcDbCircle
10
11.591109915468749
20
153.10582854123047
30
0
40
1.3000000000000034
210
0
220
-0
230
1
0
CIRCLE
5
149
100
AcDbEntity
8
0
100
AcDbCircle
10
-11.591109915468753
20
146.89417145876956
30
0
40
1.3000000000000034
210
0
220
-0
230
1
0
CIRCLE
5
150
100
AcDbEntity
8
0
100
AcDbCircle
10
-54.29999999999999
20
-8.9999999999999911
30
0
40
1.2999999999999989
210
0
220
-0
230
1
0
CIRCLE
5
151
100
AcDbEntity
8
0
100
AcDbCircle
10
-95.700000000000017
20
-8.9999999999999893
30
0
40
1.2999999999999901
210
0
220
-0
230
1
0
CIRCLE
5
152
100
AcDbEntity
8
0
100
AcDbCircle
10
-115.77877538267964
20
152.20020831163646
30
0
40
1.3000000000000078
210
0
220
-0
230
1
0
CIRCLE
5
153
100
AcDbEntity
8
0
100
AcDbCircle
10
-119.37877538267958
20
134.56388216359764
30
0
40
1.3000000000000078
210
0
220
-0
230
1
0
CIRCLE
5
154
100
AcDbEntity
8
0
100
AcDbCircle
10
-34.221224617320317
20
152.20020831163646
30
0
40
1.3000000000000034
210
0
220
-0
230
1
0
CIRCLE
5
155
100
AcDbEntity
8
0
100
AcDbCircle
10
-30.621224617320379
20
134.56388216359764
30
0
40
1.3000000000000078
210
0
220
-0
230
1
0
CIRCLE
5
156
100
AcDbEntity
8
0
100
AcDbCircle
10
-114.70000000000002
20
8.9999999999999147
30
0
40
1.3000000000000078
210
0
220
-0
230
1
0
CIRCLE
5
157
100
AcDbEntity
8
0
100
AcDbCircle
10
-35.29999999999999
20
-8.9999999999999893
30
0
40
1.2999999999999989
210
0
220
-0
230
1
0
CIRCLE
5
158
100
AcDbEntity
8
0
100
AcDbCircle
10
-114.7
20
-9.0000000000000497
30
0
40
1.3000000000000078
210
0
220
-0
230
1
0
CIRCLE
5
159
100
AcDbEntity
8
0
100
AcDbCircle
10
-35.300000000000004
20
8.9999999999999716
30
0
40
1.2999999999999989
210
0
220
-0
230
1
0
LWPOLYLINE
5
160
100
AcDbEntity
8
0
100
AcDbPolyline
90
8
70
1
43
0.0
10
-44.29999999999999
20
8.8817841970012523e-15
42
-0.99999999999999989
10
-44.29999999999999
20
3.5000000000000053
10
-44.29999999999999
20
16.500000000000004
42
-0.99999999999999989
10
-44.29999999999999
20
20
10
-41.299999999999969
20
19.999999999999996
42
-0.99999999999999989
10
-41.29999999999999
20
16.500000000000007
10
-41.299999999999969
20
3.5000000000000044
42
-0.99999999999999989
10
-41.29999999999999
20
9.1593399531575415e-15
0
LWPOLYLINE
5
161
100
AcDbEntity
8
0
100
AcDbPolyline
90
8
70
1
43
0.0
10
-105.7
20
3.5000000000000075
42
-0.99999999999999989
10
-105.7
20
-6.9388939039072284e-15
10
-108.70000000000002
20
-7.2164496600635175e-15
42
-0.99999999999999989
10
-108.70000000000002
20
3.5000000000000075
10
-108.70000000000002
20
16.499999999999993
42
-0.99999999999999989
10
-108.70000000000002
20
20.000000000000007
10
-105.7
20
20.000000000000007
42
-0.99999999999999989
10
-105.7
20
16.499999999999993
0
LWPOLYLINE
5
162
100
AcDbEntity
8
0
100
AcDbPolyline
90
8
70
1
43
0.0
10
-105.7
20
43.500000000000021
42
-0.99999999999999989
10
-105.7
20
40.000000000000007
10
-108.70000000000002
20
40.000000000000007
42
-0.99999999999999989
10
-108.70000000000002
20
43.500000000000021
10
-108.70000000000002
20
56.500000000000014
42
-0.99999999999999989
10
-108.70000000000002
20
60.000000000000028
10
-105.7
20
60.000000000000028
42
-0.99999999999999989
10
-105.7
20
56.500000000000014
0
LWPOLYLINE
5
163
100
AcDbEntity
8
0
100
AcDbPolyline
90
8
70
1
43
0.0
10
-105.69999999999995
20
83.5
42
-0.99999999999999989
10
-105.69999999999999
20
80.000000000000014
10
-108.69999999999999
20
80.000000000000014
42
-0.99999999999999989
10
-108.69999999999999
20
83.500000000000028
10
-108.69999999999999
20
96.5
42
-0.99999999999999989
10
-108.69999999999999
20
100.00000000000001
10
-105.69999999999995
20
100.00000000000001
42
-0.99999999999999989
10
-105.69999999999999
20
96.500000000000043
0
LWPOLYLINE
5
164
100
AcDbEntity
8
0
100
AcDbPolyline
90
8
70
1
43
0.0
10
-105.7
20
123.50000000000003
42
-0.99999999999999989
10
-105.7
20
120.00000000000001
10
-108.70000000000002
20
120.00000000000001
42
-0.99999999999999989
10
-108.70000000000002
20
123.50000000000003
10
-108.70000000000002
20
136.5
42
-0.99999999999999989
10
-108.70000000000002
20
140.00000000000003
10
-105.7
20
140.00000000000003
42
-0.99999999999999989
10
-105.7
20
136.5
0
ARC
5
165
100
AcDbEntity
8
0
100
AcDbCircle
10
-88.25
20
-3.0000000260770374
30
0
40
1.7500000000000073
210
0
220
0
230
1
100
AcDbArc
50
-180
51
8.5377364625159387e-07
0
LINE
5
166
100
AcDbEntity
8
0
100
AcDbLine
10
-90
20
-2.9999999999999885
30
0
11
-90
21
1.2212453270876722e-14
31
0
0
ARC
5
167
100
AcDbEntity
8
0
100
AcDbCircle
10
-88.25
20
6.9388939039072284e-15
30
0
40
1.7500000000000071
210
0
220
0
230
1
100
AcDbArc
50
0
51
180
0
LINE
5
168
100
AcDbEntity
8
0
100
AcDbLine
10
-86.499999999999986
20
6.7623466581953329e-15
30
0
11
-63.499999999999986
21
8.3328199042482554e-15
31
0
0
ARC
5
169
100
AcDbEntity
8
0
100
AcDbCircle
10
-61.749999999999986
20
3.0531133177191805e-15
30
0
40
1.7499999999999982
210
0
220
-0
230
1
100
AcDbArc
50
0
51
180
0
LINE
5
170
100
AcDbEntity
8
0
100
AcDbLine
10
-59.999999999999993
20
1.2674286822897727e-14
30
0
11
-59.999999999999993
21
-2.9999999999999885
31
0
0
ARC
5
171
100
AcDbEntity
8
0
100
AcDbCircle
10
-61.749999999999986
20
-3.0000000195577616
30
0
40
1.7499999999999982
210
0
220
0
230
1
100
AcDbArc
50
-180
51
0
0
LINE
5
172
100
AcDbEntity
8
0
100
AcDbLine
10
-63.499999999999986
20
-3.000000019557763
30
0
11
-86.499999999999986
21
-3.0000000000000231
31
0
0
LWPOLYLINE
5
173
100
AcDbEntity
8
0
100
AcDbPolyline
90
8
70
1
43
0.0
10
-41.299999999999983
20
43.5
42
-0.99999999999999989
10
-41.299999999999983
20
40
10
-44.299999999999997
20
40
42
-0.99999999999999989
10
-44.299999999999983
20
43.5
10
-44.299999999999997
20
56.5
42
-0.99999999999999989
10
-44.299999999999983
20
60
10
-41.299999999999983
20
60
42
-0.99999999999999989
10
-41.299999999999983
20
56.5
0
LWPOLYLINE
5
174
100
AcDbEntity
8
0
100
AcDbPolyline
90
8
70
1
43
0.0
10
-41.299999999999983
20
83.500000000000014
42
-0.99999999999999989
10
-41.299999999999983
20
80
10
-44.299999999999983
20
80
42
-0.99999999999999989
10
-44.299999999999983
20
83.500000000000014
10
-44.299999999999983
20
96.499999999999986
42
-0.99999999999999989
10
-44.299999999999983
20
100
10
-41.299999999999983
20
100
42
-0.99999999999999989
10
-41.299999999999983
20
96.499999999999986
0
LWPOLYLINE
5
175
100
AcDbEntity
8
0
100
AcDbPolyline
90
8
70
1
43
0.0
10
-41.299999999999983
20
123.50000000000001
42
-0.99999999999999989
10
-41.299999999999983
20
120
10
-44.299999999999983
20
120
42
-0.99999999999999989
10
-44.299999999999983
20
123.50000000000001
10
-44.299999999999983
20
136.5
42
-0.99999999999999989
10
-44.299999999999983
20
140
10
-41.299999999999983
20
140
42
-0.99999999999999989
10
-41.299999999999983
20
136.5
0
ENDSEC
0
SECTION
2
OBJECTS
0
DICTIONARY
5
C
100
AcDbDictionary
3
ACAD_GROUP
350
D
3
ACAD_MLINESTYLE
350
17
0
DICTIONARY
5
D
100
AcDbDictionary
0
DICTIONARY
5
1A
330
C
100
AcDbDictionary
0
DICTIONARY
5
17
100
AcDbDictionary
0
ENDSEC
0
EOF
