0
SECTION
2
HEADER
9
$INSUNITS
70
4
9
$ACADVER
1
AC1014
9
$HANDSEED
5
FFFF
0
ENDSEC
0
SECTION
2
TABLES
0
TABLE
2
VPORT
5
8
100
AcDbSymbolTable
0
ENDTAB
0
TABLE
2
LTYPE
5
5
100
AcDbSymbolTable
0
LTYPE
5
14
100
AcDbSymbolTableRecord
100
AcDbLinetypeTableRecord
2
BYBLOCK
70
0
0
LTYPE
5
15
100
AcDbSymbolTableRecord
100
AcDbLinetypeTableRecord
2
BYLAYER
70
0
0
ENDTAB
0
TABLE
2
LAYER
5
2
100
AcDbSymbolTable
70
2
0
LAYER
5
50
100
AcDbSymbolTableRecord
100
AcDbLayerTableRecord
2
0
70
0
6
CONTINUOUS
0
ENDTAB
0
TABLE
2
STYLE
5
3
100
AcDbSymbolTable
70
1
0
STYLE
5
11
100
AcDbSymbolTableRecord
100
AcDbTextStyleTableRecord
2
STANDARD
70
0
0
ENDTAB
0
TABLE
2
VIEW
5
6
100
AcDbSymbolTable
70
0
0
ENDTAB
0
TABLE
2
UCS
5
7
100
AcDbSymbolTable
70
0
0
ENDTAB
0
TABLE
2
APPID
5
9
100
AcDbSymbolTable
70
2
0
APPID
5
12
100
AcDbSymbolTableRecord
100
AcDbRegAppTableRecord
2
ACAD
70
0
0
ENDTAB
0
TABLE
2
DIMSTYLE
5
A
100
AcDbSymbolTable
70
1
0
ENDTAB
0
TABLE
2
BLOCK_RECORD
5
1
100
AcDbSymbolTable
70
1
0
BLOCK_RECORD
5
1F
100
AcDbSymbolTableRecord
100
AcDbBlockTableRecord
2
*MODEL_SPACE
0
BLOCK_RECORD
5
1B
100
AcDbSymbolTableRecord
100
AcDbBlockTableRecord
2
*PAPER_SPACE
0
ENDTAB
0
ENDSEC
0
SECTION
2
BLOCKS
0
BLOCK
5
20
100
AcDbEntity
100
AcDbBlockBegin
2
*MODEL_SPACE
0
ENDBLK
5
21
100
AcDbEntity
100
AcDbBlockEnd
0
BLOCK
5
1C
100
AcDbEntity
100
AcDbBlockBegin
2
*PAPER_SPACE
0
ENDBLK
5
1D
100
AcDbEntity
100
AcDbBlockEnd
0
ENDSEC
0
SECTION
2
ENTITIES
0
CIRCLE
5
100
100
AcDbEntity
8
0
100
AcDbCircle
10
-7.5
20
-22.5
30
0
40
1.3
210
0
220
-0
230
1
0
CIRCLE
5
101
100
AcDbEntity
8
0
100
AcDbCircle
10
-7.5
20
-7.5
30
0
40
1.3
210
0
220
-0
230
1
0
CIRCLE
5
102
100
AcDbEntity
8
0
100
AcDbCircle
10
-40.500000000000007
20
-22.5
30
0
40
1.2999999999999989
210
0
220
-0
230
1
0
CIRCLE
5
103
100
AcDbEntity
8
0
100
AcDbCircle
10
-40.500000000000007
20
-7.5
30
0
40
1.2999999999999989
210
0
220
-0
230
1
0
ARC
5
104
100
AcDbEntity
8
0
100
AcDbCircle
10
-51.000000019557767
20
-47.749999999999986
30
0
40
1.7499999999999982
210
0
220
-0
230
1
100
AcDbArc
50
89.999999359670241
51
270.00000021344414
0
LINE
5
105
100
AcDbEntity
8
0
100
AcDbLine
10
-51.000000000000007
20
-45.999999999999986
30
0
11
-48.000000000000007
21
-46
31
0
0
ARC
5
106
100
AcDbEntity
8
0
100
AcDbCircle
10
-48.000000000000007
20
-47.749999999999986
30
0
40
1.7499999999999982
210
0
220
0
230
1
100
AcDbArc
50
-90
51
90
0
LINE
5
107
100
AcDbEntity
8
0
100
AcDbLine
10
-48.000000000000007
20
-49.499999999999986
30
0
11
-48.000000000000007
21
-62.499999999999993
31
0
0
ARC
5
108
100
AcDbEntity
8
0
100
AcDbCircle
10
-48.000000000000007
20
-64.249999999999986
30
0
40
1.7499999999999982
210
0
220
0
230
1
100
AcDbArc
50
-90
51
90
0
LINE
5
109
100
AcDbEntity
8
0
100
AcDbLine
10
-48.000000000000007
20
-65.999999999999986
30
0
11
-51.000000000000007
21
-66
31
0
0
ARC
5
110
100
AcDbEntity
8
0
100
AcDbCircle
10
-51
20
-64.249999999999986
30
0
40
1.7499999999999982
210
0
220
0
230
1
100
AcDbArc
50
90.000000000000242
51
269.99999999999983
0
LINE
5
111
100
AcDbEntity
8
0
100
AcDbLine
10
-51.000000000000007
20
-62.499999999999993
30
0
11
-51.000000000000007
21
-49.499999999999986
31
0
0
ARC
5
112
100
AcDbEntity
8
0
100
AcDbCircle
10
-51.00000001955776
20
-7.7499999999999947
30
0
40
1.7499999999999971
210
0
220
-0
230
1
100
AcDbArc
50
89.999999359670468
51
270.00000021344437
0
LINE
5
113
100
AcDbEntity
8
0
100
AcDbLine
10
-51.000000000000007
20
-5.9999999999999973
30
0
11
-48.000000000000007
21
-5.9999999999999964
31
0
0
ARC
5
114
100
AcDbEntity
8
0
100
AcDbCircle
10
-47.999999999999986
20
-7.7499999999999947
30
0
40
1.7499999999999982
210
0
220
0
230
1
100
AcDbArc
50
-90.000000000000711
51
90.000000000000711
0
LINE
5
115
100
AcDbEntity
8
0
100
AcDbLine
10
-48.000000000000007
20
-9.4999999999999929
30
0
11
-48.000000000000007
21
-22.499999999999993
31
0
0
ARC
5
116
100
AcDbEntity
8
0
100
AcDbCircle
10
-48
20
-24.249999999999989
30
0
40
1.7499999999999982
210
0
220
0
230
1
100
AcDbArc
50
-90.000000000000199
51
90.000000000000242
0
LINE
5
117
100
AcDbEntity
8
0
100
AcDbLine
10
-48.000000000000007
20
-25.999999999999986
30
0
11
-51.000000000000007
21
-26
31
0
0
ARC
5
118
100
AcDbEntity
8
0
100
AcDbCircle
10
-51.000000019557774
20
-24.249999999999989
30
0
40
1.7499999999999982
210
0
220
-0
230
1
100
AcDbArc
50
89.999999359669999
51
270.00000021344363
0
LINE
5
119
100
AcDbEntity
8
0
100
AcDbLine
10
-51.000000000000007
20
-22.499999999999993
30
0
11
-51.000000000000007
21
-9.4999999999999929
31
0
0
ARC
5
120
100
AcDbEntity
8
0
100
AcDbCircle
10
3.0000000195577736
20
-24.25
30
0
40
1.7499999999999982
210
0
220
0
230
1
100
AcDbArc
50
-90.000000640330285
51
90.000000213443343
0
LINE
5
121
100
AcDbEntity
8
0
100
AcDbLine
10
2.9999999999999978
20
-25.999999999999996
30
0
11
0
21
-25.999999999999996
31
0
0
ARC
5
122
100
AcDbEntity
8
0
100
AcDbCircle
10
5.5511151231257827e-16
20
-24.25
30
0
40
1.7499999999999982
210
0
220
0
230
1
100
AcDbArc
50
90.000000000000014
51
270
0
LINE
5
123
100
AcDbEntity
8
0
100
AcDbLine
10
-2.1431318985078646e-16
20
-22.5
30
0
11
1.0715659492539343e-16
21
-9.5000000000000071
31
0
0
ARC
5
124
100
AcDbEntity
8
0
100
AcDbCircle
10
0
20
-7.7500000000000053
30
0
40
1.7500000000000004
210
0
220
0
230
1
100
AcDbArc
50
90
51
270
0
LINE
5
125
100
AcDbEntity
8
0
100
AcDbLine
10
-2.1431318985078685e-16
20
-6.0000000000000053
30
0
11
2.9999999999999982
21
-6.0000000000000053
31
0
0
ARC
5
126
100
AcDbEntity
8
0
100
AcDbCircle
10
3.0000000195577723
20
-7.7500000000000053
30
0
40
1.7500000000000004
210
0
220
0
230
1
100
AcDbArc
50
-90.000000640330242
51
90.000000213443371
0
LINE
5
127
100
AcDbEntity
8
0
100
AcDbLine
10
2.9999999999999982
20
-9.5000000000000071
30
0
11
2.9999999999999982
21
-22.5
31
0
0
ARC
5
128
100
AcDbEntity
8
0
100
AcDbCircle
10
3.0000000000000036
20
-64.25
30
0
40
1.7499999999999982
210
0
220
0
230
1
100
AcDbArc
50
-90.000000000000199
51
89.999999999999801
0
LINE
5
129
100
AcDbEntity
8
0
100
AcDbLine
10
2.9999999999999978
20
-66
30
0
11
0
21
-66
31
0
0
ARC
5
130
100
AcDbEntity
8
0
100
AcDbCircle
10
-3.8857805861880479e-15
20
-64.25
30
0
40
1.7499999999999982
210
0
220
-0
230
1
100
AcDbArc
50
89.999999999999901
51
270.00000000000011
0
LINE
5
131
100
AcDbEntity
8
0
100
AcDbLine
10
-2.1431318985078671e-16
20
-62.5
30
0
11
1.0715659492539329e-16
21
-49.499999999999993
31
0
0
ARC
5
132
100
AcDbEntity
8
0
100
AcDbCircle
10
-3.8857805861880479e-15
20
-47.749999999999993
30
0
40
1.7499999999999982
210
0
220
-0
230
1
100
AcDbArc
50
89.999999999999901
51
270.00000000000011
0
LINE
5
133
100
AcDbEntity
8
0
100
AcDbLine
10
-2.1431318985078671e-16
20
-46
30
0
11
2.9999999999999982
21
-46
31
0
0
ARC
5
134
100
AcDbEntity
8
0
100
AcDbCircle
10
3.000000019557775
20
-47.749999999999993
30
0
40
1.7499999999999982
210
0
220
0
230
1
100
AcDbArc
50
-90.000000640330242
51
90.000000213443371
0
LINE
5
135
100
AcDbEntity
8
0
100
AcDbLine
10
3
20
-49.499999999999993
30
0
11
3.0000000000000098
21
-62.5
31
0
0
CIRCLE
5
136
100
AcDbEntity
8
0
100
AcDbCircle
10
-61.678775382679603
20
-69.496250390543651
30
0
40
1.2999999999999989
210
0
220
-0
230
1
0
CIRCLE
5
137
100
AcDbEntity
8
0
100
AcDbCircle
10
13.6787753826796
20
-69.496250390543651
30
0
40
1.3000000000000012
210
0
220
-0
230
1
0
CIRCLE
5
138
100
AcDbEntity
8
0
100
AcDbCircle
10
-58.078775382679609
20
-87.132576538582498
30
0
40
1.2999999999999989
210
0
220
-0
230
1
0
CIRCLE
5
139
100
AcDbEntity
8
0
100
AcDbCircle
10
10.078775382679606
20
-87.132576538582498
30
0
40
1.2999999999999989
210
0
220
-0
230
1
0
CIRCLE
5
140
100
AcDbEntity
8
0
100
AcDbCircle
10
-109.39230484541328
20
-80.299999999999983
30
0
40
1.3000000000000078
210
0
220
-0
230
1
0
CIRCLE
5
141
100
AcDbEntity
8
0
100
AcDbCircle
10
-88.607695154586764
20
-92.300000000000011
30
0
40
1.3000000000000078
210
0
220
-0
230
1
0
CIRCLE
5
142
100
AcDbEntity
8
0
100
AcDbCircle
10
40.60769515458675
20
-92.300000000000011
30
0
40
1.3000000000000078
210
0
220
-0
230
1
0
CIRCLE
5
143
100
AcDbEntity
8
0
100
AcDbCircle
10
61.392304845413278
20
-80.299999999999983
30
0
40
1.3000000000000078
210
0
220
-0
230
1
0
CIRCLE
5
144
100
AcDbEntity
8
0
100
AcDbCircle
10
51
20
-86.299999999999983
30
0
40
8.9999999999999947
210
0
220
-0
230
1
0
CIRCLE
5
145
100
AcDbEntity
8
0
100
AcDbCircle
10
54.105828541230245
20
-74.708890084531163
30
0
40
1.3000000000000078
210
0
220
-0
230
1
0
CIRCLE
5
146
100
AcDbEntity
8
0
100
AcDbCircle
10
47.894171458769762
20
-97.891109915468803
30
0
40
1.3000000000000078
210
0
220
-0
230
1
0
CIRCLE
5
147
100
AcDbEntity
8
0
100
AcDbCircle
10
-87.408890084531208
20
-83.194171458769759
30
0
40
1.3000000000000078
210
0
220
-0
230
1
0
CIRCLE
5
148
100
AcDbEntity
8
0
100
AcDbCircle
10
-110.59110991546885
20
-89.405828541230235
30
0
40
1.3000000000000078
210
0
220
-0
230
1
0
CIRCLE
5
149
100
AcDbEntity
8
0
100
AcDbCircle
10
-102.10582854123025
20
-74.708890084531163
30
0
40
1.3000000000000078
210
0
220
-0
230
1
0
CIRCLE
5
150
100
AcDbEntity
8
0
100
AcDbCircle
10
-95.894171458769776
20
-97.891109915468803
30
0
40
1.3000000000000078
210
0
220
-0
230
1
0
CIRCLE
5
151
100
AcDbEntity
8
0
100
AcDbCircle
10
39.408890084531194
20
-83.194171458769759
30
0
40
1.3000000000000078
210
0
220
-0
230
1
0
CIRCLE
5
152
100
AcDbEntity
8
0
100
AcDbCircle
10
62.591109915468834
20
-89.405828541230235
30
0
40
1.3000000000000078
210
0
220
-0
230
1
0
CIRCLE
5
153
100
AcDbEntity
8
0
100
AcDbCircle
10
57.000000000000028
20
-96.692304845413247
30
0
40
1.3000000000000078
210
0
220
-0
230
1
0
CIRCLE
5
154
100
AcDbEntity
8
0
100
AcDbCircle
10
44.999999999999993
20
-75.907695154586733
30
0
40
1.3000000000000078
210
0
220
-0
230
1
0
CIRCLE
5
155
100
AcDbEntity
8
0
100
AcDbCircle
10
-99
20
-86.299999999999983
30
0
40
9.0000000000000036
210
0
220
-0
230
1
0
CIRCLE
5
156
100
AcDbEntity
8
0
100
AcDbCircle
10
-93
20
-75.907695154586733
30
0
40
1.3000000000000078
210
0
220
-0
230
1
0
CIRCLE
5
157
100
AcDbEntity
8
0
100
AcDbCircle
10
-105.00000000000003
20
-96.692304845413247
30
0
40
1.3000000000000078
210
0
220
-0
230
1
0
LWPOLYLINE
5
158
100
AcDbEntity
8
0
100
AcDbPolyline
90
9
70
1
43
0.0
10
48
20
-100.99693845669906
10
-24.000000000000004
20
-86.299999999999983
10
-96.000000000000028
20
-100.99693845669906
42
-0.99999999999999989
10
-101.99999999999997
20
-71.603061543300925
10
-53.039999999999992
20
-61.609143392745587
10
-65.615913733515669
20
0
10
17.615913733515693
20
0
10
5.0400000000000045
20
-61.609143392745558
10
53.999999999999993
20
-71.603061543300925
42
-0.99999999999999989
0
ENDSEC
0
SECTION
2
OBJECTS
0
DICTIONARY
5
C
100
AcDbDictionary
3
ACAD_GROUP
350
D
3
ACAD_MLINESTYLE
350
17
0
DICTIONARY
5
D
100
AcDbDictionary
0
DICTIONARY
5
1A
330
C
100
AcDbDictionary
0
DICTIONARY
5
17
100
AcDbDictionary
0
ENDSEC
0
EOF
